NENZOP

言葉にしないと伝わらない。文字にしないと残らない。

簡単にできるベース曲#2 Daft Punk−Digital Love

Sponsored Link

f:id:Ziddorie:20160923175551j:plain

ベースが届いて初日にだって弾けるレベルの簡単な曲を紹介していきます。
第1回のWeezerのBeverly Hillsにつづいて今回はDaft PunkのDigital Loveです。

Digital Loveの原曲はこちら!

www.youtube.comアニメのMVが特徴的なDigital Loveですが、今回のベースラインは楽曲中ずっとバックで流れている「テレッテッテッテー」の部分になります。

この曲のベースラインも超簡単なので落ち着いて弾いておけばベースを購入したその日にだって弾けます。

Tab譜はこちら!

チューニングはスタンダードのEADGで行きます。
ピックか指弾きかは好みですが、MVでは指弾きのようです。(アニメキャラですが…)

リフは2つにわけられます。インストソロとそれ以外です。
曲の全般に渡って流れるベースリフはこんな感じです。

G|-------------------------------------------------|
D|-----------4-2~---------------4-2~-----------|
A|---5-5--4------------5-5--4----------------|
E|-------------------------------------------------|

「テレッテッテッテー」をイメージできるでしょうか
2フレットを人差し指で押さえてしまえば左手は一度も動かさずに弾けるのでストレッチにもおすすめです。

次がインストソロ部分です。

G|-------------------------------------------------------|
D|-----------4-4----------------------4-4--------------|
A|5-5--4-4-----4-4-4---5-5--4-4--------4-4-4-----|
E|-------------------------------------------------------|

ちょっとだけベースラインが変わりましたね。
でも使うフレットは同じですので使う指も同じです。

このベースラインも簡単で、ベースギターを買ったその日にでも弾けてしまうような曲です。
ちょっと切な目のメロディーを支えるなんちゃってベースラインを楽しんで行きましょう!

ベース練習のおともに!

エレキベースを生音で鳴らすとビリビリいったりするのでアンプを通して練習することをおすすめします。
でっかいアンプは場所をとるのでAmplugをおすすめします。

このAmplugは小さくてベースにつけっぱなしにして置いてもじゃまにならないので一つ買っておくと便利です。